ISO-10303-21;
HEADER;
FILE_DESCRIPTION (( 'STEP AP214' ),
    '1' );
FILE_NAME ('GCC-411106.STEP',
    '2020-02-15T10:10:50',
    ( 'China' ),
    ( 'Microsoft' ),
    'SwSTEP 2.0',
    'SolidWorks 2018',
    '' );
FILE_SCHEMA (( 'AUTOMOTIVE_DESIGN' ));
ENDSEC;

DATA;
#1 = UNCERTAINTY_MEASURE_WITH_UNIT (LENGTH_MEASURE( 1.000000000000000082E-05 ), #210, 'distance_accuracy_value', 'NONE');
#2 = AXIS2_PLACEMENT_3D ( 'NONE', #126, #168, #71 ) ;
#3 =( NAMED_UNIT ( * ) PLANE_ANGLE_UNIT ( ) SI_UNIT ( $, .RADIAN. ) );
#4 = SURFACE_STYLE_FILL_AREA ( #218 ) ;
#5 = VERTEX_POINT ( 'NONE', #16 ) ;
#6 = MECHANICAL_DESIGN_GEOMETRIC_PRESENTATION_REPRESENTATION (  '', ( #181 ), #42 ) ;
#7 = ADVANCED_FACE ( 'NONE', ( #45 ), #219, .T. ) ;
#8 = CIRCLE ( 'NONE', #109, 12.69999999999999929 ) ;
#9 = CYLINDRICAL_SURFACE ( 'NONE', #2, 12.69999999999999929 ) ;
#10 = ORIENTED_EDGE ( 'NONE', *, *, #48, .F. ) ;
#11 = EDGE_CURVE ( 'NONE', #88, #142, #164, .T. ) ;
#12 = DIRECTION ( 'NONE',  ( 1.000000000000000000, 0.0000000000000000000, 0.0000000000000000000 ) ) ;
#13 = ORIENTED_EDGE ( 'NONE', *, *, #233, .F. ) ;
#14 = CARTESIAN_POINT ( 'NONE',  ( -12.69999999999999929, 0.0000000000000000000, 3.000000000000000000 ) ) ;
#15 = CARTESIAN_POINT ( 'NONE',  ( 0.0000000000000000000, 0.0000000000000000000, 0.2999999999999981570 ) ) ;
#16 = CARTESIAN_POINT ( 'NONE',  ( 12.39999999999999325, 1.536931732929927411E-15, 3.000000000000000000 ) ) ;
#17 = VECTOR ( 'NONE', #57, 1000.000000000000000 ) ;
#18 = DIRECTION ( 'NONE',  ( 1.000000000000000000, 0.0000000000000000000, -0.0000000000000000000 ) ) ;
#19 =( NAMED_UNIT ( * ) SI_UNIT ( $, .STERADIAN. ) SOLID_ANGLE_UNIT ( ) );
#20 = DIRECTION ( 'NONE',  ( 0.0000000000000000000, 0.0000000000000000000, 1.000000000000000000 ) ) ;
#21 = DIRECTION ( 'NONE',  ( -1.000000000000000000, 0.0000000000000000000, 0.0000000000000000000 ) ) ;
#22 = MANIFOLD_SOLID_BREP ( 'µ¹½Ç1', #107 ) ;
#23 = APPLICATION_PROTOCOL_DEFINITION ( 'draft international standard', 'automotive_design', 1998, #199 ) ;
#24 = LINE ( 'NONE', #14, #26 ) ;
#25 = AXIS2_PLACEMENT_3D ( 'NONE', #78, #20, #18 ) ;
#26 = VECTOR ( 'NONE', #31, 1000.000000000000000 ) ;
#27 = ORIENTED_EDGE ( 'NONE', *, *, #79, .T. ) ;
#28 = ADVANCED_FACE ( 'NONE', ( #136 ), #124, .T. ) ;
#29 = EDGE_CURVE ( 'NONE', #60, #77, #24, .T. ) ;
#30 = CIRCLE ( 'NONE', #65, 12.39999999999999325 ) ;
#31 = DIRECTION ( 'NONE',  ( -0.0000000000000000000, -0.0000000000000000000, -1.000000000000000000 ) ) ;
#32 = VERTEX_POINT ( 'NONE', #205 ) ;
#33 = AXIS2_PLACEMENT_3D ( 'NONE', #111, #50, #53 ) ;
#34 = DIRECTION ( 'NONE',  ( 1.000000000000000000, 0.0000000000000000000, -0.0000000000000000000 ) ) ;
#35 = DIRECTION ( 'NONE',  ( 0.7071067811865495711, 0.0000000000000000000, 0.7071067811865454633 ) ) ;
#36 = ORIENTED_EDGE ( 'NONE', *, *, #129, .F. ) ;
#37 = CARTESIAN_POINT ( 'NONE',  ( 0.0000000000000000000, 0.0000000000000000000, 0.2999999999999981570 ) ) ;
#38 = DIRECTION ( 'NONE',  ( 0.0000000000000000000, 0.0000000000000000000, -1.000000000000000000 ) ) ;
#39 = CARTESIAN_POINT ( 'NONE',  ( 12.69999999999999929, 1.555301434917138433E-15, 3.000000000000000000 ) ) ;
#40 = ORIENTED_EDGE ( 'NONE', *, *, #216, .T. ) ;
#41 = DIRECTION ( 'NONE',  ( 1.000000000000000000, 0.0000000000000000000, 0.0000000000000000000 ) ) ;
#42 =( GEOMETRIC_REPRESENTATION_CONTEXT ( 3 ) GLOBAL_UNCERTAINTY_ASSIGNED_CONTEXT ( ( #1 ) ) GLOBAL_UNIT_ASSIGNED_CONTEXT ( ( #210, #86, #127 ) ) REPRESENTATION_CONTEXT ( 'NONE', 'WORKASPACE' ) );
#43 = DIRECTION ( 'NONE',  ( 1.000000000000000000, 0.0000000000000000000, 0.0000000000000000000 ) ) ;
#44 = UNCERTAINTY_MEASURE_WITH_UNIT (LENGTH_MEASURE( 1.000000000000000082E-05 ), #217, 'distance_accuracy_value', 'NONE');
#45 = FACE_OUTER_BOUND ( 'NONE', #160, .T. ) ;
#46 = ADVANCED_FACE ( 'NONE', ( #76 ), #110, .T. ) ;
#47 = LINE ( 'NONE', #85, #239 ) ;
#48 = EDGE_CURVE ( 'NONE', #60, #201, #118, .T. ) ;
#49 = ORIENTED_EDGE ( 'NONE', *, *, #129, .T. ) ;
#50 = DIRECTION ( 'NONE',  ( 0.0000000000000000000, 0.0000000000000000000, -1.000000000000000000 ) ) ;
#51 = ORIENTED_EDGE ( 'NONE', *, *, #48, .T. ) ;
#52 = DIRECTION ( 'NONE',  ( -0.0000000000000000000, -0.0000000000000000000, 1.000000000000000000 ) ) ;
#53 = DIRECTION ( 'NONE',  ( -1.000000000000000000, 0.0000000000000000000, 0.0000000000000000000 ) ) ;
#54 =( LENGTH_UNIT ( ) NAMED_UNIT ( * ) SI_UNIT ( .MILLI., .METRE. ) );
#55 = CIRCLE ( 'NONE', #200, 12.39999999999999325 ) ;
#56 = CARTESIAN_POINT ( 'NONE',  ( 12.40000000000000036, 0.0000000000000000000, 0.0000000000000000000 ) ) ;
#57 = DIRECTION ( 'NONE',  ( -0.7071067811865495711, 0.0000000000000000000, -0.7071067811865454633 ) ) ;
#58 = EDGE_CURVE ( 'NONE', #142, #88, #222, .T. ) ;
#59 = DIRECTION ( 'NONE',  ( -0.0000000000000000000, -0.0000000000000000000, -1.000000000000000000 ) ) ;
#60 = VERTEX_POINT ( 'NONE', #185 ) ;
#61 = SURFACE_SIDE_STYLE ('',( #4 ) ) ;
#62 = ORIENTED_EDGE ( 'NONE', *, *, #165, .F. ) ;
#63 = ADVANCED_FACE ( 'NONE', ( #113 ), #9, .T. ) ;
#64 = ORIENTED_EDGE ( 'NONE', *, *, #156, .T. ) ;
#65 = AXIS2_PLACEMENT_3D ( 'NONE', #176, #114, #41 ) ;
#66 = EDGE_CURVE ( 'NONE', #77, #32, #120, .T. ) ;
#67 = LINE ( 'NONE', #69, #212 ) ;
#68 = EDGE_CURVE ( 'NONE', #88, #32, #67, .T. ) ;
#69 = CARTESIAN_POINT ( 'NONE',  ( 12.69999999999999929, 0.0000000000000000000, 0.2999999999999981570 ) ) ;
#70 = SURFACE_SIDE_STYLE ('',( #220 ) ) ;
#71 = DIRECTION ( 'NONE',  ( -1.000000000000000000, 0.0000000000000000000, 0.0000000000000000000 ) ) ;
#72 = DIRECTION ( 'NONE',  ( 1.000000000000000000, 0.0000000000000000000, 0.0000000000000000000 ) ) ;
#73 = DIRECTION ( 'NONE',  ( -0.0000000000000000000, -0.0000000000000000000, 1.000000000000000000 ) ) ;
#74 = AXIS2_PLACEMENT_3D ( 'NONE', #186, #206, #12 ) ;
#75 = CARTESIAN_POINT ( 'NONE',  ( 0.0000000000000000000, 0.0000000000000000000, 3.000000000000000000 ) ) ;
#76 = FACE_OUTER_BOUND ( 'NONE', #207, .T. ) ;
#77 = VERTEX_POINT ( 'NONE', #108 ) ;
#78 = CARTESIAN_POINT ( 'NONE',  ( 0.0000000000000000000, 0.0000000000000000000, 0.0000000000000000000 ) ) ;
#79 = EDGE_CURVE ( 'NONE', #5, #201, #47, .T. ) ;
#80 = ORIENTED_EDGE ( 'NONE', *, *, #58, .F. ) ;
#81 = ADVANCED_FACE ( 'NONE', ( #150 ), #84, .T. ) ;
#82 = AXIS2_PLACEMENT_3D ( 'NONE', #15, #52, #209 ) ;
#83 = AXIS2_PLACEMENT_3D ( 'NONE', #91, #38, #92 ) ;
#84 = CONICAL_SURFACE ( 'NONE', #82, 12.69999999999999929, 0.7853981633974511656 ) ;
#85 = CARTESIAN_POINT ( 'NONE',  ( 12.39999999999999325, 1.518562030942716784E-15, 3.000000000000000000 ) ) ;
#86 =( NAMED_UNIT ( * ) PLANE_ANGLE_UNIT ( ) SI_UNIT ( $, .RADIAN. ) );
#87 = DIRECTION ( 'NONE',  ( -0.0000000000000000000, -0.0000000000000000000, 1.000000000000000000 ) ) ;
#88 = VERTEX_POINT ( 'NONE', #56 ) ;
#89 = DIRECTION ( 'NONE',  ( -0.0000000000000000000, -0.0000000000000000000, -1.000000000000000000 ) ) ;
#90 = CARTESIAN_POINT ( 'NONE',  ( 0.0000000000000000000, 0.0000000000000000000, 0.0000000000000000000 ) ) ;
#91 = CARTESIAN_POINT ( 'NONE',  ( 0.0000000000000000000, 0.0000000000000000000, 2.699999999999994849 ) ) ;
#92 = DIRECTION ( 'NONE',  ( 1.000000000000000000, 0.0000000000000000000, 0.0000000000000000000 ) ) ;
#93 = ORIENTED_EDGE ( 'NONE', *, *, #68, .F. ) ;
#94 = CARTESIAN_POINT ( 'NONE',  ( 0.0000000000000000000, 0.0000000000000000000, 3.000000000000000000 ) ) ;
#95 = CARTESIAN_POINT ( 'NONE',  ( 0.0000000000000000000, 0.0000000000000000000, 3.000000000000000000 ) ) ;
#96 = EDGE_CURVE ( 'NONE', #201, #60, #171, .T. ) ;
#97 = EDGE_LOOP ( 'NONE', ( #183, #13, #49, #167 ) ) ;
#98 = APPLICATION_PROTOCOL_DEFINITION ( 'draft international standard', 'automotive_design', 1998, #155 ) ;
#99 = PRODUCT_CONTEXT ( 'NONE', #199, 'mechanical' ) ;
#100 = PRESENTATION_STYLE_ASSIGNMENT (( #225 ) ) ;
#101 = ORIENTED_EDGE ( 'NONE', *, *, #216, .F. ) ;
#102 = ADVANCED_FACE ( 'NONE', ( #117 ), #157, .T. ) ;
#103 = COLOUR_RGB ( '',0.9411764705882352811, 0.9607843137254902244, 0.9686274509803921573 ) ;
#104 = EDGE_LOOP ( 'NONE', ( #101, #27, #10, #36 ) ) ;
#105 = STYLED_ITEM ( 'NONE', ( #131 ), #159 ) ;
#106 = CONICAL_SURFACE ( 'NONE', #173, 12.39999999999999325, 0.7853981633974511656 ) ;
#107 = CLOSED_SHELL ( 'NONE', ( #182, #7, #63, #102, #46, #232, #81, #28 ) ) ;
#108 = CARTESIAN_POINT ( 'NONE',  ( -12.69999999999999929, 0.0000000000000000000, 0.2999999999999981570 ) ) ;
#109 = AXIS2_PLACEMENT_3D ( 'NONE', #175, #73, #195 ) ;
#110 = PLANE ( 'NONE',  #140 ) ;
#111 = CARTESIAN_POINT ( 'NONE',  ( 0.0000000000000000000, 0.0000000000000000000, 3.000000000000000000 ) ) ;
#112 = VECTOR ( 'NONE', #130, 1000.000000000000000 ) ;
#113 = FACE_OUTER_BOUND ( 'NONE', #154, .T. ) ;
#114 = DIRECTION ( 'NONE',  ( 0.0000000000000000000, 0.0000000000000000000, 1.000000000000000000 ) ) ;
#115 = DIRECTION ( 'NONE',  ( 0.0000000000000000000, 0.0000000000000000000, 1.000000000000000000 ) ) ;
#116 = MECHANICAL_DESIGN_GEOMETRIC_PRESENTATION_REPRESENTATION (  '', ( #105 ), #203 ) ;
#117 = FACE_OUTER_BOUND ( 'NONE', #137, .T. ) ;
#118 = CIRCLE ( 'NONE', #74, 12.69999999999999929 ) ;
#119 =( NAMED_UNIT ( * ) SI_UNIT ( $, .STERADIAN. ) SOLID_ANGLE_UNIT ( ) );
#120 = CIRCLE ( 'NONE', #144, 12.69999999999999929 ) ;
#121 = ORIENTED_EDGE ( 'NONE', *, *, #156, .F. ) ;
#122 = PRODUCT_DEFINITION ( 'Î´Öª', '', #223, #128 ) ;
#123 = AXIS2_PLACEMENT_3D ( 'NONE', #90, #235, #72 ) ;
#124 = CONICAL_SURFACE ( 'NONE', #33, 12.39999999999999325, 0.7853981633974511656 ) ;
#125 = CARTESIAN_POINT ( 'NONE',  ( 0.0000000000000000000, 0.0000000000000000000, 0.0000000000000000000 ) ) ;
#126 = CARTESIAN_POINT ( 'NONE',  ( 0.0000000000000000000, 0.0000000000000000000, 3.000000000000000000 ) ) ;
#127 =( NAMED_UNIT ( * ) SI_UNIT ( $, .STERADIAN. ) SOLID_ANGLE_UNIT ( ) );
#128 = PRODUCT_DEFINITION_CONTEXT ( 'detailed design', #155, 'design' ) ;
#129 = EDGE_CURVE ( 'NONE', #141, #60, #177, .T. ) ;
#130 = DIRECTION ( 'NONE',  ( -0.0000000000000000000, -0.0000000000000000000, -1.000000000000000000 ) ) ;
#131 = PRESENTATION_STYLE_ASSIGNMENT (( #135 ) ) ;
#132 = ORIENTED_EDGE ( 'NONE', *, *, #68, .T. ) ;
#133 = DIRECTION ( 'NONE',  ( 1.000000000000000000, 0.0000000000000000000, 0.0000000000000000000 ) ) ;
#134 = PRESENTATION_LAYER_ASSIGNMENT (  '', '', ( #105 ) ) ;
#135 = SURFACE_STYLE_USAGE ( .BOTH. , #61 ) ;
#136 = FACE_OUTER_BOUND ( 'NONE', #97, .T. ) ;
#137 = EDGE_LOOP ( 'NONE', ( #62, #162, #151, #190 ) ) ;
#138 = FACE_OUTER_BOUND ( 'NONE', #204, .T. ) ;
#139 = ORIENTED_EDGE ( 'NONE', *, *, #233, .T. ) ;
#140 = AXIS2_PLACEMENT_3D ( 'NONE', #166, #145, #34 ) ;
#141 = VERTEX_POINT ( 'NONE', #147 ) ;
#142 = VERTEX_POINT ( 'NONE', #238 ) ;
#143 = FILL_AREA_STYLE_COLOUR ( '', #193 ) ;
#144 = AXIS2_PLACEMENT_3D ( 'NONE', #188, #87, #237 ) ;
#145 = DIRECTION ( 'NONE',  ( 0.0000000000000000000, 0.0000000000000000000, 1.000000000000000000 ) ) ;
#146 = DIRECTION ( 'NONE',  ( -0.0000000000000000000, -0.0000000000000000000, 1.000000000000000000 ) ) ;
#147 = CARTESIAN_POINT ( 'NONE',  ( -12.39999999999999325, 0.0000000000000000000, 3.000000000000000000 ) ) ;
#148 = LINE ( 'NONE', #39, #112 ) ;
#149 = CARTESIAN_POINT ( 'NONE',  ( 0.0000000000000000000, 0.0000000000000000000, 0.0000000000000000000 ) ) ;
#150 = FACE_OUTER_BOUND ( 'NONE', #214, .T. ) ;
#151 = ORIENTED_EDGE ( 'NONE', *, *, #29, .T. ) ;
#152 = PRODUCT ( 'GCC-411106', 'GCC-411106', '', ( #99 ) ) ;
#153 = DIRECTION ( 'NONE',  ( 0.0000000000000000000, 0.0000000000000000000, -1.000000000000000000 ) ) ;
#154 = EDGE_LOOP ( 'NONE', ( #51, #198, #236, #234 ) ) ;
#155 = APPLICATION_CONTEXT ( 'automotive_design' ) ;
#156 = EDGE_CURVE ( 'NONE', #142, #77, #226, .T. ) ;
#157 = CYLINDRICAL_SURFACE ( 'NONE', #187, 12.69999999999999929 ) ;
#158 = ORIENTED_EDGE ( 'NONE', *, *, #179, .F. ) ;
#159 = ADVANCED_BREP_SHAPE_REPRESENTATION ( 'GCC-411106', ( #22, #231 ), #213 ) ;
#160 = EDGE_LOOP ( 'NONE', ( #80, #64, #158, #93 ) ) ;
#161 = PRESENTATION_LAYER_ASSIGNMENT (  '', '', ( #181 ) ) ;
#162 = ORIENTED_EDGE ( 'NONE', *, *, #96, .T. ) ;
#163 = VECTOR ( 'NONE', #215, 1000.000000000000000 ) ;
#164 = CIRCLE ( 'NONE', #123, 12.40000000000000036 ) ;
#165 = EDGE_CURVE ( 'NONE', #201, #32, #148, .T. ) ;
#166 = CARTESIAN_POINT ( 'NONE',  ( 0.0000000000000000000, 0.0000000000000000000, 3.000000000000000000 ) ) ;
#167 = ORIENTED_EDGE ( 'NONE', *, *, #96, .F. ) ;
#168 = DIRECTION ( 'NONE',  ( -0.0000000000000000000, -0.0000000000000000000, -1.000000000000000000 ) ) ;
#169 = UNCERTAINTY_MEASURE_WITH_UNIT (LENGTH_MEASURE( 1.000000000000000082E-05 ), #54, 'distance_accuracy_value', 'NONE');
#170 = FILL_AREA_STYLE ('',( #143 ) ) ;
#171 = CIRCLE ( 'NONE', #83, 12.69999999999999929 ) ;
#172 = CARTESIAN_POINT ( 'NONE',  ( -12.39999999999999325, 0.0000000000000000000, 3.000000000000000000 ) ) ;
#173 = AXIS2_PLACEMENT_3D ( 'NONE', #75, #153, #197 ) ;
#174 = CARTESIAN_POINT ( 'NONE',  ( -12.69999999999999929, 1.555301434917138433E-15, 0.2999999999999981570 ) ) ;
#175 = CARTESIAN_POINT ( 'NONE',  ( 0.0000000000000000000, 0.0000000000000000000, 0.2999999999999981570 ) ) ;
#176 = CARTESIAN_POINT ( 'NONE',  ( 0.0000000000000000000, 0.0000000000000000000, 3.000000000000000000 ) ) ;
#177 = LINE ( 'NONE', #172, #17 ) ;
#178 = ORIENTED_EDGE ( 'NONE', *, *, #11, .F. ) ;
#179 = EDGE_CURVE ( 'NONE', #32, #77, #8, .T. ) ;
#180 = SHAPE_DEFINITION_REPRESENTATION ( #221, #159 ) ;
#181 = STYLED_ITEM ( 'NONE', ( #100 ), #22 ) ;
#182 = ADVANCED_FACE ( 'NONE', ( #211 ), #106, .T. ) ;
#183 = ORIENTED_EDGE ( 'NONE', *, *, #79, .F. ) ;
#184 = AXIS2_PLACEMENT_3D ( 'NONE', #37, #146, #224 ) ;
#185 = CARTESIAN_POINT ( 'NONE',  ( -12.69999999999999929, 0.0000000000000000000, 2.699999999999994849 ) ) ;
#186 = CARTESIAN_POINT ( 'NONE',  ( 0.0000000000000000000, 0.0000000000000000000, 2.699999999999994849 ) ) ;
#187 = AXIS2_PLACEMENT_3D ( 'NONE', #94, #59, #21 ) ;
#188 = CARTESIAN_POINT ( 'NONE',  ( 0.0000000000000000000, 0.0000000000000000000, 0.2999999999999981570 ) ) ;
#189 = DIRECTION ( 'NONE',  ( 0.7071067811865495711, 8.659560562354956277E-17, -0.7071067811865454633 ) ) ;
#190 = ORIENTED_EDGE ( 'NONE', *, *, #66, .T. ) ;
#191 =( NAMED_UNIT ( * ) PLANE_ANGLE_UNIT ( ) SI_UNIT ( $, .RADIAN. ) );
#192 = PRODUCT_RELATED_PRODUCT_CATEGORY ( 'part', '', ( #152 ) ) ;
#193 = COLOUR_RGB ( '',0.9411764705882352811, 0.9607843137254902244, 0.9686274509803921573 ) ;
#194 = ORIENTED_EDGE ( 'NONE', *, *, #58, .T. ) ;
#195 = DIRECTION ( 'NONE',  ( 1.000000000000000000, 0.0000000000000000000, 0.0000000000000000000 ) ) ;
#196 = AXIS2_PLACEMENT_3D ( 'NONE', #125, #89, #208 ) ;
#197 = DIRECTION ( 'NONE',  ( -1.000000000000000000, 0.0000000000000000000, 0.0000000000000000000 ) ) ;
#198 = ORIENTED_EDGE ( 'NONE', *, *, #165, .T. ) ;
#199 = APPLICATION_CONTEXT ( 'automotive_design' ) ;
#200 = AXIS2_PLACEMENT_3D ( 'NONE', #95, #115, #133 ) ;
#201 = VERTEX_POINT ( 'NONE', #227 ) ;
#202 = ORIENTED_EDGE ( 'NONE', *, *, #66, .F. ) ;
#203 =( GEOMETRIC_REPRESENTATION_CONTEXT ( 3 ) GLOBAL_UNCERTAINTY_ASSIGNED_CONTEXT ( ( #44 ) ) GLOBAL_UNIT_ASSIGNED_CONTEXT ( ( #217, #3, #119 ) ) REPRESENTATION_CONTEXT ( 'NONE', 'WORKASPACE' ) );
#204 = EDGE_LOOP ( 'NONE', ( #228, #194 ) ) ;
#205 = CARTESIAN_POINT ( 'NONE',  ( 12.69999999999999929, 1.555301434917138433E-15, 0.2999999999999981570 ) ) ;
#206 = DIRECTION ( 'NONE',  ( 0.0000000000000000000, 0.0000000000000000000, -1.000000000000000000 ) ) ;
#207 = EDGE_LOOP ( 'NONE', ( #139, #40 ) ) ;
#208 = DIRECTION ( 'NONE',  ( 1.000000000000000000, 0.0000000000000000000, 0.0000000000000000000 ) ) ;
#209 = DIRECTION ( 'NONE',  ( 1.000000000000000000, 0.0000000000000000000, 0.0000000000000000000 ) ) ;
#210 =( LENGTH_UNIT ( ) NAMED_UNIT ( * ) SI_UNIT ( .MILLI., .METRE. ) );
#211 = FACE_OUTER_BOUND ( 'NONE', #104, .T. ) ;
#212 = VECTOR ( 'NONE', #35, 1000.000000000000000 ) ;
#213 =( GEOMETRIC_REPRESENTATION_CONTEXT ( 3 ) GLOBAL_UNCERTAINTY_ASSIGNED_CONTEXT ( ( #169 ) ) GLOBAL_UNIT_ASSIGNED_CONTEXT ( ( #54, #191, #19 ) ) REPRESENTATION_CONTEXT ( 'NONE', 'WORKASPACE' ) );
#214 = EDGE_LOOP ( 'NONE', ( #121, #178, #132, #202 ) ) ;
#215 = DIRECTION ( 'NONE',  ( -0.7071067811865495711, 8.659560562354957510E-17, 0.7071067811865454633 ) ) ;
#216 = EDGE_CURVE ( 'NONE', #5, #141, #30, .T. ) ;
#217 =( LENGTH_UNIT ( ) NAMED_UNIT ( * ) SI_UNIT ( .MILLI., .METRE. ) );
#218 = FILL_AREA_STYLE ('',( #229 ) ) ;
#219 = CONICAL_SURFACE ( 'NONE', #184, 12.69999999999999929, 0.7853981633974511656 ) ;
#220 = SURFACE_STYLE_FILL_AREA ( #170 ) ;
#221 = PRODUCT_DEFINITION_SHAPE ( 'NONE', 'NONE',  #122 ) ;
#222 = CIRCLE ( 'NONE', #196, 12.40000000000000036 ) ;
#223 = PRODUCT_DEFINITION_FORMATION_WITH_SPECIFIED_SOURCE ( 'ÈÎºÎ', '', #152, .NOT_KNOWN. ) ;
#224 = DIRECTION ( 'NONE',  ( 1.000000000000000000, 0.0000000000000000000, 0.0000000000000000000 ) ) ;
#225 = SURFACE_STYLE_USAGE ( .BOTH. , #70 ) ;
#226 = LINE ( 'NONE', #174, #163 ) ;
#227 = CARTESIAN_POINT ( 'NONE',  ( 12.69999999999999929, 1.555301434917138433E-15, 2.699999999999994849 ) ) ;
#228 = ORIENTED_EDGE ( 'NONE', *, *, #11, .T. ) ;
#229 = FILL_AREA_STYLE_COLOUR ( '', #103 ) ;
#230 = DIRECTION ( 'NONE',  ( 0.0000000000000000000, 0.0000000000000000000, 1.000000000000000000 ) ) ;
#231 = AXIS2_PLACEMENT_3D ( 'NONE', #149, #230, #43 ) ;
#232 = ADVANCED_FACE ( 'NONE', ( #138 ), #240, .F. ) ;
#233 = EDGE_CURVE ( 'NONE', #141, #5, #55, .T. ) ;
#234 = ORIENTED_EDGE ( 'NONE', *, *, #29, .F. ) ;
#235 = DIRECTION ( 'NONE',  ( -0.0000000000000000000, -0.0000000000000000000, -1.000000000000000000 ) ) ;
#236 = ORIENTED_EDGE ( 'NONE', *, *, #179, .T. ) ;
#237 = DIRECTION ( 'NONE',  ( 1.000000000000000000, 0.0000000000000000000, 0.0000000000000000000 ) ) ;
#238 = CARTESIAN_POINT ( 'NONE',  ( -12.40000000000000036, 1.536931732929928200E-15, 0.0000000000000000000 ) ) ;
#239 = VECTOR ( 'NONE', #189, 1000.000000000000000 ) ;
#240 = PLANE ( 'NONE',  #25 ) ;
ENDSEC;
END-ISO-10303-21;
